読者です 読者をやめる 読者になる 読者になる

BambinaのTAB譜

夏休みに暇だったので俺のギターソロ動画をアップしてみたところ、変な外人からTab譜をくれ!と言われたので、試しに布袋寅泰のバンビーナのソロのTAB譜を書いてみた。耳コピなので間違えているところもあるかと思うが、まあ勘弁してくれ外国人供よ。

E|-----------------------------------12-12-12---15-15-15---15-15-15------12------------------------------------------
B|----------------------------12-14--12-12-12---14-14-14---14-14-14---------12_15_12----12---------------------------
G|---------------------9---13-----------------------------------------14cho----------14----15-14-12----12------------
D|---------2------9-11------------------------------------------------------------------------------14----14_12_14---
A|-----2-4-----11----------------------------------------------------------------------------------------------------
E|-0-4---------------------------------------------------------------------------------------------------------------

E|---2--------------------------------------------------------------------------------------------------------------
B|-4--4-2-0-------------------14-cho-14-12-14-12----------12-----------------------------------------------------------------
G|----------2-0-2-------------14-cho-14-12-14-12----------12------------------------------------------------------------------------------
D|--------------------2-----2--------------------14-12-14--------------------------------------------------------------
A|------------------------------------------------------------------------------------------------------------------
E|----------------3-0---3-0----------------------------------------------------------------------------------------------